ISO-10303-21;
HEADER;
/* Generated by software containing ST-Developer
 * from STEP Tools, Inc. (www.steptools.com) 
 */
/* OPTION: using custom schema-name function */

FILE_DESCRIPTION(
/* description */ (''),
/* implementation_level */ '2;1');

FILE_NAME(
/* name */ 'AHN100.dxf',
/* time_stamp */ '2012-11-23T14:39:28+08:00',
/* author */ (''),
/* organization */ (''),
/* preprocessor_version */ 'ST-DEVELOPER v9',
/* originating_system */ 'UGS - NX 4.0',
/* authorisation */ '');

FILE_SCHEMA (('AUTOMOTIVE_DESIGN { 1 0 10303 214 1 1 1 1 }'));
ENDSEC;

DATA;
#10=SHAPE_REPRESENTATION_RELATIONSHIP('None',
'relationship between Admi3ACDxh5i-None and Admi3ACDxh5i-None',#22,#11);
#11=ADVANCED_BREP_SHAPE_REPRESENTATION('Admi3ACDxh5i-None',(#32),#225);
#12=SHAPE_DEFINITION_REPRESENTATION(#13,#22);
#13=PRODUCT_DEFINITION_SHAPE('','',#14);
#14=PRODUCT_DEFINITION(' ','',#16,#15);
#15=PRODUCT_DEFINITION_CONTEXT('part definition',#21,'design');
#16=PRODUCT_DEFINITION_FORMATION_WITH_SPECIFIED_SOURCE(' ',' ',#18,.NOT_KNOWN.);
#17=PRODUCT_RELATED_PRODUCT_CATEGORY('part','',(#18));
#18=PRODUCT('Admi3ACDxh5i','Admi3ACDxh5i',' ',(#19));
#19=PRODUCT_CONTEXT(' ',#21,'mechanical');
#20=APPLICATION_PROTOCOL_DEFINITION('international standard',
'automotive_design',2001,#21);
#21=APPLICATION_CONTEXT(
'core data for automotive mechanical design processes');
#22=SHAPE_REPRESENTATION('Admi3ACDxh5i-None',(#135),#225);
#23=PRESENTATION_LAYER_ASSIGNMENT('1','Layer 1',(#32));
#24=STYLED_ITEM('',(#25),#32);
#25=PRESENTATION_STYLE_ASSIGNMENT((#26));
#26=SURFACE_STYLE_USAGE(.BOTH.,#27);
#27=SURFACE_SIDE_STYLE('',(#28));
#28=SURFACE_STYLE_FILL_AREA(#29);
#29=FILL_AREA_STYLE('',(#30));
#30=FILL_AREA_STYLE_COLOUR('',#31);
#31=COLOUR_RGB('Light Gray',0.6,0.6,0.6);
#32=MANIFOLD_SOLID_BREP('',#33);
#33=CLOSED_SHELL('',(#50,#51,#52,#53,#54,#55,#56,#57,#58,#59));
#34=CYLINDRICAL_SURFACE('',#141,14.9999999999999);
#35=CYLINDRICAL_SURFACE('',#151,50.);
#36=CONICAL_SURFACE('',#139,14.9999999999999,45.);
#37=CONICAL_SURFACE('',#145,25.,41.9872124958172);
#38=CONICAL_SURFACE('',#149,50.,45.);
#39=CONICAL_SURFACE('',#153,48.9999999999999,45.0000000000032);
#40=FACE_BOUND('',#73,.T.);
#41=FACE_BOUND('',#75,.T.);
#42=FACE_BOUND('',#76,.T.);
#43=FACE_BOUND('',#77,.T.);
#44=FACE_BOUND('',#79,.T.);
#45=FACE_BOUND('',#81,.T.);
#46=FACE_BOUND('',#83,.T.);
#47=FACE_BOUND('',#85,.T.);
#48=FACE_BOUND('',#86,.T.);
#49=FACE_BOUND('',#88,.T.);
#50=ADVANCED_FACE('',(#64),#60,.F.);
#51=ADVANCED_FACE('',(#40,#65),#36,.T.);
#52=ADVANCED_FACE('',(#41,#42),#34,.T.);
#53=ADVANCED_FACE('',(#43,#66),#61,.F.);
#54=ADVANCED_FACE('',(#44,#67),#37,.T.);
#55=ADVANCED_FACE('',(#45,#68),#62,.F.);
#56=ADVANCED_FACE('',(#46,#69),#38,.T.);
#57=ADVANCED_FACE('',(#47,#48),#35,.T.);
#58=ADVANCED_FACE('',(#70,#49),#39,.T.);
#59=ADVANCED_FACE('',(#71),#63,.F.);
#60=PLANE('',#137);
#61=PLANE('',#143);
#62=PLANE('',#147);
#63=PLANE('',#154);
#64=FACE_OUTER_BOUND('',#72,.T.);
#65=FACE_OUTER_BOUND('',#74,.T.);
#66=FACE_OUTER_BOUND('',#78,.T.);
#67=FACE_OUTER_BOUND('',#80,.T.);
#68=FACE_OUTER_BOUND('',#82,.T.);
#69=FACE_OUTER_BOUND('',#84,.T.);
#70=FACE_OUTER_BOUND('',#87,.T.);
#71=FACE_OUTER_BOUND('',#89,.T.);
#72=EDGE_LOOP('',(#90));
#73=EDGE_LOOP('',(#91));
#74=EDGE_LOOP('',(#92));
#75=EDGE_LOOP('',(#93));
#76=EDGE_LOOP('',(#94));
#77=EDGE_LOOP('',(#95));
#78=EDGE_LOOP('',(#96));
#79=EDGE_LOOP('',(#97));
#80=EDGE_LOOP('',(#98));
#81=EDGE_LOOP('',(#99));
#82=EDGE_LOOP('',(#100));
#83=EDGE_LOOP('',(#101));
#84=EDGE_LOOP('',(#102));
#85=EDGE_LOOP('',(#103));
#86=EDGE_LOOP('',(#104));
#87=EDGE_LOOP('',(#105));
#88=EDGE_LOOP('',(#106));
#89=EDGE_LOOP('',(#107));
#90=ORIENTED_EDGE('',*,*,#117,.T.);
#91=ORIENTED_EDGE('',*,*,#117,.F.);
#92=ORIENTED_EDGE('',*,*,#118,.T.);
#93=ORIENTED_EDGE('',*,*,#118,.F.);
#94=ORIENTED_EDGE('',*,*,#119,.T.);
#95=ORIENTED_EDGE('',*,*,#119,.F.);
#96=ORIENTED_EDGE('',*,*,#120,.T.);
#97=ORIENTED_EDGE('',*,*,#120,.F.);
#98=ORIENTED_EDGE('',*,*,#121,.T.);
#99=ORIENTED_EDGE('',*,*,#121,.F.);
#100=ORIENTED_EDGE('',*,*,#122,.T.);
#101=ORIENTED_EDGE('',*,*,#122,.F.);
#102=ORIENTED_EDGE('',*,*,#123,.T.);
#103=ORIENTED_EDGE('',*,*,#123,.F.);
#104=ORIENTED_EDGE('',*,*,#124,.T.);
#105=ORIENTED_EDGE('',*,*,#124,.F.);
#106=ORIENTED_EDGE('',*,*,#125,.T.);
#107=ORIENTED_EDGE('',*,*,#125,.F.);
#108=VERTEX_POINT('',#197);
#109=VERTEX_POINT('',#200);
#110=VERTEX_POINT('',#203);
#111=VERTEX_POINT('',#206);
#112=VERTEX_POINT('',#209);
#113=VERTEX_POINT('',#212);
#114=VERTEX_POINT('',#215);
#115=VERTEX_POINT('',#218);
#116=VERTEX_POINT('',#221);
#117=EDGE_CURVE('',#108,#108,#126,.T.);
#118=EDGE_CURVE('',#109,#109,#127,.T.);
#119=EDGE_CURVE('',#110,#110,#128,.T.);
#120=EDGE_CURVE('',#111,#111,#129,.T.);
#121=EDGE_CURVE('',#112,#112,#130,.T.);
#122=EDGE_CURVE('',#113,#113,#131,.T.);
#123=EDGE_CURVE('',#114,#114,#132,.T.);
#124=EDGE_CURVE('',#115,#115,#133,.T.);
#125=EDGE_CURVE('',#116,#116,#134,.T.);
#126=CIRCLE('',#136,14.);
#127=CIRCLE('',#138,14.9999999999999);
#128=CIRCLE('',#140,14.9999999999999);
#129=CIRCLE('',#142,15.9999999999999);
#130=CIRCLE('',#144,25.);
#131=CIRCLE('',#146,48.9999999999999);
#132=CIRCLE('',#148,50.);
#133=CIRCLE('',#150,50.);
#134=CIRCLE('',#152,48.9999999999999);
#135=AXIS2_PLACEMENT_3D('',#195,#155,#156);
#136=AXIS2_PLACEMENT_3D('',#196,#157,#158);
#137=AXIS2_PLACEMENT_3D('',#198,#159,#160);
#138=AXIS2_PLACEMENT_3D('',#199,#161,#162);
#139=AXIS2_PLACEMENT_3D('',#201,#163,#164);
#140=AXIS2_PLACEMENT_3D('',#202,#165,#166);
#141=AXIS2_PLACEMENT_3D('',#204,#167,#168);
#142=AXIS2_PLACEMENT_3D('',#205,#169,#170);
#143=AXIS2_PLACEMENT_3D('',#207,#171,#172);
#144=AXIS2_PLACEMENT_3D('',#208,#173,#174);
#145=AXIS2_PLACEMENT_3D('',#210,#175,#176);
#146=AXIS2_PLACEMENT_3D('',#211,#177,#178);
#147=AXIS2_PLACEMENT_3D('',#213,#179,#180);
#148=AXIS2_PLACEMENT_3D('',#214,#181,#182);
#149=AXIS2_PLACEMENT_3D('',#216,#183,#184);
#150=AXIS2_PLACEMENT_3D('',#217,#185,#186);
#151=AXIS2_PLACEMENT_3D('',#219,#187,#188);
#152=AXIS2_PLACEMENT_3D('',#220,#189,#190);
#153=AXIS2_PLACEMENT_3D('',#222,#191,#192);
#154=AXIS2_PLACEMENT_3D('',#223,#193,#194);
#155=DIRECTION('',(0.,0.,1.));
#156=DIRECTION('',(1.,0.,0.));
#157=DIRECTION('',(1.,0.,0.));
#158=DIRECTION('',(0.,0.,-1.));
#159=DIRECTION('',(-1.,0.,0.));
#160=DIRECTION('',(0.,0.,1.));
#161=DIRECTION('',(1.,0.,0.));
#162=DIRECTION('',(0.,0.,-1.));
#163=DIRECTION('',(-1.,0.,0.));
#164=DIRECTION('',(5.46907893904018E-017,0.,1.));
#165=DIRECTION('',(1.,0.,0.));
#166=DIRECTION('',(0.,0.,-1.));
#167=DIRECTION('',(1.,0.,0.));
#168=DIRECTION('',(0.,0.,-1.));
#169=DIRECTION('',(1.,0.,0.));
#170=DIRECTION('',(0.,0.,-1.));
#171=DIRECTION('',(-1.,0.,0.));
#172=DIRECTION('',(0.,0.,1.));
#173=DIRECTION('',(1.,0.,0.));
#174=DIRECTION('',(0.,0.,-1.));
#175=DIRECTION('',(-1.,0.,0.));
#176=DIRECTION('',(0.,0.,1.));
#177=DIRECTION('',(1.,0.,0.));
#178=DIRECTION('',(0.,0.,-1.));
#179=DIRECTION('',(-1.,0.,0.));
#180=DIRECTION('',(0.,0.,1.));
#181=DIRECTION('',(1.,0.,0.));
#182=DIRECTION('',(0.,0.,-1.));
#183=DIRECTION('',(-1.,0.,0.));
#184=DIRECTION('',(0.,0.,1.));
#185=DIRECTION('',(1.,0.,0.));
#186=DIRECTION('',(0.,0.,-1.));
#187=DIRECTION('',(1.,0.,0.));
#188=DIRECTION('',(0.,0.,-1.));
#189=DIRECTION('',(1.,0.,0.));
#190=DIRECTION('',(0.,0.,-1.));
#191=DIRECTION('',(1.,0.,0.));
#192=DIRECTION('',(0.,0.,-1.));
#193=DIRECTION('',(1.,0.,0.));
#194=DIRECTION('',(0.,0.,-1.));
#195=CARTESIAN_POINT('',(0.,0.,0.));
#196=CARTESIAN_POINT('',(496.5,427.,0.));
#197=CARTESIAN_POINT('',(496.5,427.,-14.));
#198=CARTESIAN_POINT('',(496.5,441.,0.));
#199=CARTESIAN_POINT('',(495.5,427.,0.));
#200=CARTESIAN_POINT('',(495.5,427.,-14.9999999999999));
#201=CARTESIAN_POINT('',(495.5,427.,0.));
#202=CARTESIAN_POINT('',(482.5,427.,0.));
#203=CARTESIAN_POINT('',(482.5,427.,-14.9999999999999));
#204=CARTESIAN_POINT('',(507.,427.,0.));
#205=CARTESIAN_POINT('',(482.5,427.,0.));
#206=CARTESIAN_POINT('',(482.5,427.,-15.9999999999999));
#207=CARTESIAN_POINT('',(482.5,443.,0.));
#208=CARTESIAN_POINT('',(472.5,427.,0.));
#209=CARTESIAN_POINT('',(472.5,427.,-25.));
#210=CARTESIAN_POINT('',(472.5,427.,0.));
#211=CARTESIAN_POINT('',(472.5,427.,0.));
#212=CARTESIAN_POINT('',(472.5,427.,-48.9999999999999));
#213=CARTESIAN_POINT('',(472.5,476.,0.));
#214=CARTESIAN_POINT('',(471.5,427.,0.));
#215=CARTESIAN_POINT('',(471.5,427.,-50.));
#216=CARTESIAN_POINT('',(471.5,427.,0.));
#217=CARTESIAN_POINT('',(459.5,427.,0.));
#218=CARTESIAN_POINT('',(459.5,427.,-50.));
#219=CARTESIAN_POINT('',(507.,427.,0.));
#220=CARTESIAN_POINT('',(458.5,427.,0.));
#221=CARTESIAN_POINT('',(458.5,427.,-48.9999999999999));
#222=CARTESIAN_POINT('',(458.5,427.,0.));
#223=CARTESIAN_POINT('',(458.5,427.,0.));
#224=MECHANICAL_DESIGN_GEOMETRIC_PRESENTATION_REPRESENTATION('',(#24),#225);
#225=(
GEOMETRIC_REPRESENTATION_CONTEXT(3)
GLOBAL_UNCERTAINTY_ASSIGNED_CONTEXT((#226))
GLOBAL_UNIT_ASSIGNED_CONTEXT((#232,#228,#227))
REPRESENTATION_CONTEXT('AHN100','TOP_LEVEL_ASSEMBLY_PART')
);
#226=UNCERTAINTY_MEASURE_WITH_UNIT(LENGTH_MEASURE(2.E-005),#232,
'DISTANCE_ACCURACY_VALUE','Maximum Tolerance applied to model');
#227=(
NAMED_UNIT(*)
SI_UNIT($,.STERADIAN.)
SOLID_ANGLE_UNIT()
);
#228=(
CONVERSION_BASED_UNIT('DEGREE',#230)
NAMED_UNIT(#229)
PLANE_ANGLE_UNIT()
);
#229=DIMENSIONAL_EXPONENTS(0.,0.,0.,0.,0.,0.,0.);
#230=PLANE_ANGLE_MEASURE_WITH_UNIT(PLANE_ANGLE_MEASURE(0.0174532925),#231);
#231=(
NAMED_UNIT(*)
PLANE_ANGLE_UNIT()
SI_UNIT($,.RADIAN.)
);
#232=(
LENGTH_UNIT()
NAMED_UNIT(*)
SI_UNIT(.MILLI.,.METRE.)
);
ENDSEC;
END-ISO-10303-21;
